ISO-10303-21;
HEADER;
FILE_DESCRIPTION (( 'STEP AP214' ),
    '1' );
FILE_NAME ('CF83522.STEP',
    '2012-10-10T18:07:47',
    ( 'x' ),
    ( '' ),
    'SwSTEP 2.0',
    'SolidWorks 2012',
    '' );
FILE_SCHEMA (( 'AUTOMOTIVE_DESIGN' ));
ENDSEC;

DATA;
#1 = APPLICATION_CONTEXT ( 'automotive_design' ) ;
#2 = FILL_AREA_STYLE_COLOUR ( '', #30 ) ;
#3 = FILL_AREA_STYLE ('',( #2 ) ) ;
#4 = SURFACE_SIDE_STYLE ('',( #33 ) ) ;
#5 = SURFACE_STYLE_USAGE ( .BOTH. , #4 ) ;
#6 =( LENGTH_UNIT ( ) NAMED_UNIT ( * ) SI_UNIT ( $, .METRE. ) );
#7 =( CONVERSION_BASED_UNIT ( 'INCH', #79 ) LENGTH_UNIT ( ) NAMED_UNIT ( #145 ) );
#8 =( NAMED_UNIT ( * ) PLANE_ANGLE_UNIT ( ) SI_UNIT ( $, .RADIAN. ) );
#9 =( NAMED_UNIT ( * ) SI_UNIT ( $, .STERADIAN. ) SOLID_ANGLE_UNIT ( ) );
#10 = DIRECTION ( 'NONE',  ( 0.0000000000000000000, 0.0000000000000000000, 1.000000000000000000 ) ) ;
#11 = CARTESIAN_POINT ( 'NONE',  ( 0.1899999999999999700, 0.0000000000000000000, 0.0000000000000000000 ) ) ;
#12 = DIRECTION ( 'NONE',  ( -1.000000000000000000, -0.0000000000000000000, -0.0000000000000000000 ) ) ;
#13 = DIRECTION ( 'NONE',  ( 0.0000000000000000000, 0.0000000000000000000, 1.000000000000000000 ) ) ;
#14 = DIRECTION ( 'NONE',  ( 0.0000000000000000000, 0.0000000000000000000, 1.000000000000000000 ) ) ;
#15 = CARTESIAN_POINT ( 'NONE',  ( 0.1899999999999999700, 0.0000000000000000000, 0.0000000000000000000 ) ) ;
#16 = DIRECTION ( 'NONE',  ( -1.000000000000000000, -0.0000000000000000000, -0.0000000000000000000 ) ) ;
#17 = DIRECTION ( 'NONE',  ( 0.0000000000000000000, 0.0000000000000000000, -1.000000000000000000 ) ) ;
#18 = ADVANCED_BREP_SHAPE_REPRESENTATION ( 'CF83522', ( #28, #195 ), #190 ) ;
#19 = UNCERTAINTY_MEASURE_WITH_UNIT (LENGTH_MEASURE( 1.000000000000000100E-005 ), #7, 'distance_accuracy_value', 'NONE');
#20 = DIRECTION ( 'NONE',  ( 0.0000000000000000000, 0.0000000000000000000, -1.000000000000000000 ) ) ;
#21 = CARTESIAN_POINT ( 'NONE',  ( 0.1899999999999999700, 8.327598234202001900E-018, -0.06800000000000000500 ) ) ;
#22 = DIRECTION ( 'NONE',  ( -1.000000000000000000, -0.0000000000000000000, -0.0000000000000000000 ) ) ;
#23 = CARTESIAN_POINT ( 'NONE',  ( 0.1899999999999999700, 7.286648454926750900E-018, -0.05949999999999999700 ) ) ;
#24 = CARTESIAN_POINT ( 'NONE',  ( -0.1899999999999999700, 0.0000000000000000000, 0.0000000000000000000 ) ) ;
#25 = DIRECTION ( 'NONE',  ( 1.000000000000000000, 0.0000000000000000000, 0.0000000000000000000 ) ) ;
#26 = UNCERTAINTY_MEASURE_WITH_UNIT (LENGTH_MEASURE( 1.000000000000000100E-005 ), #157, 'distance_accuracy_value', 'NONE');
#27 = UNCERTAINTY_MEASURE_WITH_UNIT (LENGTH_MEASURE( 1.000000000000000100E-005 ), #135, 'distance_accuracy_value', 'NONE');
#28 = MANIFOLD_SOLID_BREP ( 'Boss-Extrude1', #66 ) ;
#29 = PRODUCT ( 'CF83522', 'CF83522', '', ( #112 ) ) ;
#30 = COLOUR_RGB ( '',0.7529411764705882200, 0.7529411764705882200, 0.7529411764705882200 ) ;
#31 = CIRCLE ( 'NONE', #189, 0.05949999999999999700 ) ;
#32 = VECTOR ( 'NONE', #22, 39.37007874015748100 ) ;
#33 = SURFACE_STYLE_FILL_AREA ( #3 ) ;
#34 = PRESENTATION_STYLE_ASSIGNMENT (( #5 ) ) ;
#35 = CIRCLE ( 'NONE', #187, 0.05949999999999999700 ) ;
#36 = LENGTH_MEASURE_WITH_UNIT ( LENGTH_MEASURE( 0.02539999999999999900 ), #156 );
#37 = ORIENTED_EDGE ( 'NONE', *, *, #161, .T. ) ;
#38 = VERTEX_POINT ( 'NONE', #208 ) ;
#39 = VERTEX_POINT ( 'NONE', #128 ) ;
#40 = ORIENTED_EDGE ( 'NONE', *, *, #165, .T. ) ;
#41 = FACE_OUTER_BOUND ( 'NONE', #77, .T. ) ;
#42 = CIRCLE ( 'NONE', #185, 0.06800000000000000500 ) ;
#43 = FACE_OUTER_BOUND ( 'NONE', #55, .T. ) ;
#44 = VECTOR ( 'NONE', #127, 39.37007874015748100 ) ;
#45 = FACE_OUTER_BOUND ( 'NONE', #71, .T. ) ;
#46 = CIRCLE ( 'NONE', #186, 0.06800000000000000500 ) ;
#47 = VECTOR ( 'NONE', #122, 39.37007874015748100 ) ;
#48 = LINE ( 'NONE', #119, #44 ) ;
#49 = FACE_BOUND ( 'NONE', #73, .T. ) ;
#50 = LINE ( 'NONE', #23, #62 ) ;
#51 = CYLINDRICAL_SURFACE ( 'NONE', #177, 0.06800000000000000500 ) ;
#52 = CYLINDRICAL_SURFACE ( 'NONE', #176, 0.05949999999999999700 ) ;
#53 = CIRCLE ( 'NONE', #188, 0.06800000000000000500 ) ;
#54 = LINE ( 'NONE', #21, #32 ) ;
#55 = EDGE_LOOP ( 'NONE', ( #106, #89, #37, #68 ) ) ;
#56 = CYLINDRICAL_SURFACE ( 'NONE', #179, 0.05949999999999999700 ) ;
#57 = FACE_OUTER_BOUND ( 'NONE', #76, .T. ) ;
#58 = CIRCLE ( 'NONE', #184, 0.05949999999999999700 ) ;
#59 = CYLINDRICAL_SURFACE ( 'NONE', #178, 0.06800000000000000500 ) ;
#60 = ORIENTED_EDGE ( 'NONE', *, *, #165, .F. ) ;
#61 = FACE_OUTER_BOUND ( 'NONE', #64, .T. ) ;
#62 = VECTOR ( 'NONE', #154, 39.37007874015748100 ) ;
#63 = ORIENTED_EDGE ( 'NONE', *, *, #162, .T. ) ;
#64 = EDGE_LOOP ( 'NONE', ( #86, #105, #85, #70 ) ) ;
#65 = ORIENTED_EDGE ( 'NONE', *, *, #167, .T. ) ;
#66 = CLOSED_SHELL ( 'NONE', ( #143, #142, #148, #144, #141, #140 ) ) ;
#67 = LINE ( 'NONE', #123, #47 ) ;
#68 = ORIENTED_EDGE ( 'NONE', *, *, #170, .F. ) ;
#69 = VERTEX_POINT ( 'NONE', #200 ) ;
#70 = ORIENTED_EDGE ( 'NONE', *, *, #169, .T. ) ;
#71 = EDGE_LOOP ( 'NONE', ( #99, #83, #91, #96 ) ) ;
#72 = PRESENTATION_STYLE_ASSIGNMENT (( #133 ) ) ;
#73 = EDGE_LOOP ( 'NONE', ( #63, #100 ) ) ;
#74 = LENGTH_MEASURE_WITH_UNIT ( LENGTH_MEASURE( 0.02539999999999999900 ), #134 );
#75 = CIRCLE ( 'NONE', #181, 0.06800000000000000500 ) ;
#76 = EDGE_LOOP ( 'NONE', ( #108, #97, #40, #88 ) ) ;
#77 = EDGE_LOOP ( 'NONE', ( #92, #60 ) ) ;
#78 = EDGE_LOOP ( 'NONE', ( #93, #82 ) ) ;
#79 = LENGTH_MEASURE_WITH_UNIT ( LENGTH_MEASURE( 0.02539999999999999900 ), #6 );
#80 = FACE_OUTER_BOUND ( 'NONE', #98, .T. ) ;
#81 = VERTEX_POINT ( 'NONE', #199 ) ;
#82 = ORIENTED_EDGE ( 'NONE', *, *, #168, .F. ) ;
#83 = ORIENTED_EDGE ( 'NONE', *, *, #171, .T. ) ;
#84 = VERTEX_POINT ( 'NONE', #209 ) ;
#85 = ORIENTED_EDGE ( 'NONE', *, *, #166, .T. ) ;
#86 = ORIENTED_EDGE ( 'NONE', *, *, #164, .F. ) ;
#87 = VERTEX_POINT ( 'NONE', #201 ) ;
#88 = ORIENTED_EDGE ( 'NONE', *, *, #166, .F. ) ;
#89 = ORIENTED_EDGE ( 'NONE', *, *, #168, .T. ) ;
#90 = VERTEX_POINT ( 'NONE', #207 ) ;
#91 = ORIENTED_EDGE ( 'NONE', *, *, #162, .F. ) ;
#92 = ORIENTED_EDGE ( 'NONE', *, *, #169, .F. ) ;
#93 = ORIENTED_EDGE ( 'NONE', *, *, #163, .F. ) ;
#94 = COLOUR_RGB ( '',0.7529411764705882200, 0.7529411764705882200, 0.7529411764705882200 ) ;
#95 = ORIENTED_EDGE ( 'NONE', *, *, #160, .T. ) ;
#96 = ORIENTED_EDGE ( 'NONE', *, *, #161, .F. ) ;
#97 = ORIENTED_EDGE ( 'NONE', *, *, #164, .T. ) ;
#98 = EDGE_LOOP ( 'NONE', ( #65, #95 ) ) ;
#99 = ORIENTED_EDGE ( 'NONE', *, *, #163, .T. ) ;
#100 = ORIENTED_EDGE ( 'NONE', *, *, #170, .T. ) ;
#101 = SURFACE_STYLE_FILL_AREA ( #131 ) ;
#102 = FACE_BOUND ( 'NONE', #78, .T. ) ;
#103 = SHAPE_DEFINITION_REPRESENTATION ( #138, #18 ) ;
#104 = VERTEX_POINT ( 'NONE', #202 ) ;
#105 = ORIENTED_EDGE ( 'NONE', *, *, #167, .F. ) ;
#106 = ORIENTED_EDGE ( 'NONE', *, *, #171, .F. ) ;
#107 = CIRCLE ( 'NONE', #183, 0.05949999999999999700 ) ;
#108 = ORIENTED_EDGE ( 'NONE', *, *, #160, .F. ) ;
#109 = DIRECTION ( 'NONE',  ( 0.0000000000000000000, 0.0000000000000000000, 1.000000000000000000 ) ) ;
#110 = DIRECTION ( 'NONE',  ( 1.000000000000000000, 0.0000000000000000000, 0.0000000000000000000 ) ) ;
#111 = APPLICATION_PROTOCOL_DEFINITION ( 'draft international standard', 'automotive_design', 1998, #1 ) ;
#112 = PRODUCT_CONTEXT ( 'NONE', #1, 'mechanical' ) ;
#113 = APPLICATION_CONTEXT ( 'automotive_design' ) ;
#114 = APPLICATION_PROTOCOL_DEFINITION ( 'draft international standard', 'automotive_design', 1998, #113 ) ;
#115 = CARTESIAN_POINT ( 'NONE',  ( -0.1899999999999999700, 0.0000000000000000000, 0.0000000000000000000 ) ) ;
#116 = DIRECTION ( 'NONE',  ( 1.000000000000000000, 0.0000000000000000000, 0.0000000000000000000 ) ) ;
#117 = DIRECTION ( 'NONE',  ( 0.0000000000000000000, 0.0000000000000000000, -1.000000000000000000 ) ) ;
#118 = CARTESIAN_POINT ( 'NONE',  ( 0.1899999999999999700, 0.0000000000000000000, 0.0000000000000000000 ) ) ;
#119 = CARTESIAN_POINT ( 'NONE',  ( 0.1899999999999999700, 0.0000000000000000000, 0.06800000000000000500 ) ) ;
#120 = CARTESIAN_POINT ( 'NONE',  ( 0.1899999999999999700, 0.0000000000000000000, 0.0000000000000000000 ) ) ;
#121 = DIRECTION ( 'NONE',  ( 1.000000000000000000, 0.0000000000000000000, 0.0000000000000000000 ) ) ;
#122 = DIRECTION ( 'NONE',  ( -1.000000000000000000, -0.0000000000000000000, -0.0000000000000000000 ) ) ;
#123 = CARTESIAN_POINT ( 'NONE',  ( 0.1899999999999999700, 0.0000000000000000000, 0.05949999999999999700 ) ) ;
#124 = CARTESIAN_POINT ( 'NONE',  ( 0.1899999999999999700, 0.0000000000000000000, 0.0000000000000000000 ) ) ;
#125 = DIRECTION ( 'NONE',  ( 1.000000000000000000, 0.0000000000000000000, 0.0000000000000000000 ) ) ;
#126 = DIRECTION ( 'NONE',  ( 0.0000000000000000000, 0.0000000000000000000, -1.000000000000000000 ) ) ;
#127 = DIRECTION ( 'NONE',  ( -1.000000000000000000, -0.0000000000000000000, -0.0000000000000000000 ) ) ;
#128 = CARTESIAN_POINT ( 'NONE',  ( 0.1899999999999999700, 0.0000000000000000000, 0.06800000000000000500 ) ) ;
#129 = DIRECTION ( 'NONE',  ( 0.0000000000000000000, 0.0000000000000000000, -1.000000000000000000 ) ) ;
#130 = FILL_AREA_STYLE_COLOUR ( '', #94 ) ;
#131 = FILL_AREA_STYLE ('',( #130 ) ) ;
#132 = SURFACE_SIDE_STYLE ('',( #101 ) ) ;
#133 = SURFACE_STYLE_USAGE ( .BOTH. , #132 ) ;
#134 =( LENGTH_UNIT ( ) NAMED_UNIT ( * ) SI_UNIT ( $, .METRE. ) );
#135 =( CONVERSION_BASED_UNIT ( 'INCH', #74 ) LENGTH_UNIT ( ) NAMED_UNIT ( #146 ) );
#136 =( NAMED_UNIT ( * ) PLANE_ANGLE_UNIT ( ) SI_UNIT ( $, .RADIAN. ) );
#137 =( NAMED_UNIT ( * ) SI_UNIT ( $, .STERADIAN. ) SOLID_ANGLE_UNIT ( ) );
#138 = PRODUCT_DEFINITION_SHAPE ( 'NONE', 'NONE',  #196 ) ;
#139 = PRODUCT_DEFINITION_CONTEXT ( 'detailed design', #113, 'design' ) ;
#140 = ADVANCED_FACE ( 'NONE', ( #43 ), #52, .F. ) ;
#141 = ADVANCED_FACE ( 'NONE', ( #61 ), #51, .T. ) ;
#142 = ADVANCED_FACE ( 'NONE', ( #57 ), #59, .T. ) ;
#143 = ADVANCED_FACE ( 'NONE', ( #45 ), #56, .F. ) ;
#144 = ADVANCED_FACE ( 'NONE', ( #41, #49 ), #217, .F. ) ;
#145 = DIMENSIONAL_EXPONENTS ( 1.000000000000000000, 0.0000000000000000000, 0.0000000000000000000, 0.0000000000000000000, 0.0000000000000000000, 0.0000000000000000000, 0.0000000000000000000 ) ;
#146 = DIMENSIONAL_EXPONENTS ( 1.000000000000000000, 0.0000000000000000000, 0.0000000000000000000, 0.0000000000000000000, 0.0000000000000000000, 0.0000000000000000000, 0.0000000000000000000 ) ;
#147 = DIMENSIONAL_EXPONENTS ( 1.000000000000000000, 0.0000000000000000000, 0.0000000000000000000, 0.0000000000000000000, 0.0000000000000000000, 0.0000000000000000000, 0.0000000000000000000 ) ;
#148 = ADVANCED_FACE ( 'NONE', ( #80, #102 ), #223, .T. ) ;
#149 = CARTESIAN_POINT ( 'NONE',  ( 0.1899999999999999700, 0.0000000000000000000, 0.0000000000000000000 ) ) ;
#150 = DIRECTION ( 'NONE',  ( 1.000000000000000000, 0.0000000000000000000, 0.0000000000000000000 ) ) ;
#151 = DIRECTION ( 'NONE',  ( 0.0000000000000000000, 0.0000000000000000000, -1.000000000000000000 ) ) ;
#152 = DIRECTION ( 'NONE',  ( 1.000000000000000000, 0.0000000000000000000, 0.0000000000000000000 ) ) ;
#153 = DIRECTION ( 'NONE',  ( 0.0000000000000000000, 0.0000000000000000000, -1.000000000000000000 ) ) ;
#154 = DIRECTION ( 'NONE',  ( -1.000000000000000000, -0.0000000000000000000, -0.0000000000000000000 ) ) ;
#155 = CARTESIAN_POINT ( 'NONE',  ( 0.0000000000000000000, 0.0000000000000000000, 0.0000000000000000000 ) ) ;
#156 =( LENGTH_UNIT ( ) NAMED_UNIT ( * ) SI_UNIT ( $, .METRE. ) );
#157 =( CONVERSION_BASED_UNIT ( 'INCH', #36 ) LENGTH_UNIT ( ) NAMED_UNIT ( #147 ) );
#158 =( NAMED_UNIT ( * ) PLANE_ANGLE_UNIT ( ) SI_UNIT ( $, .RADIAN. ) );
#159 =( NAMED_UNIT ( * ) SI_UNIT ( $, .STERADIAN. ) SOLID_ANGLE_UNIT ( ) );
#160 = EDGE_CURVE ( 'NONE', #87, #39, #75, .T. ) ;
#161 = EDGE_CURVE ( 'NONE', #69, #104, #67, .T. ) ;
#162 = EDGE_CURVE ( 'NONE', #104, #38, #107, .T. ) ;
#163 = EDGE_CURVE ( 'NONE', #69, #81, #58, .T. ) ;
#164 = EDGE_CURVE ( 'NONE', #87, #84, #54, .T. ) ;
#165 = EDGE_CURVE ( 'NONE', #84, #90, #42, .T. ) ;
#166 = EDGE_CURVE ( 'NONE', #39, #90, #48, .T. ) ;
#167 = EDGE_CURVE ( 'NONE', #39, #87, #46, .T. ) ;
#168 = EDGE_CURVE ( 'NONE', #81, #69, #35, .T. ) ;
#169 = EDGE_CURVE ( 'NONE', #90, #84, #53, .T. ) ;
#170 = EDGE_CURVE ( 'NONE', #38, #104, #31, .T. ) ;
#171 = EDGE_CURVE ( 'NONE', #81, #38, #50, .T. ) ;
#172 = STYLED_ITEM ( 'NONE', ( #72 ), #28 ) ;
#173 = PRESENTATION_LAYER_ASSIGNMENT (  '', '', ( #172 ) ) ;
#174 = MECHANICAL_DESIGN_GEOMETRIC_PRESENTATION_REPRESENTATION (  '', ( #172 ), #175 ) ;
#175 =( GEOMETRIC_REPRESENTATION_CONTEXT ( 3 ) GLOBAL_UNCERTAINTY_ASSIGNED_CONTEXT ( ( #27 ) ) GLOBAL_UNIT_ASSIGNED_CONTEXT ( ( #135, #136, #137 ) ) REPRESENTATION_CONTEXT ( 'NONE', 'WORKASPACE' ) );
#176 = AXIS2_PLACEMENT_3D ( 'NONE', #206, #210, #203 ) ;
#177 = AXIS2_PLACEMENT_3D ( 'NONE', #205, #204, #10 ) ;
#178 = AXIS2_PLACEMENT_3D ( 'NONE', #11, #12, #14 ) ;
#179 = AXIS2_PLACEMENT_3D ( 'NONE', #15, #16, #13 ) ;
#180 = AXIS2_PLACEMENT_3D ( 'NONE', #219, #220, #221 ) ;
#181 = AXIS2_PLACEMENT_3D ( 'NONE', #124, #125, #126 ) ;
#182 = AXIS2_PLACEMENT_3D ( 'NONE', #222, #218, #129 ) ;
#183 = AXIS2_PLACEMENT_3D ( 'NONE', #115, #116, #117 ) ;
#184 = AXIS2_PLACEMENT_3D ( 'NONE', #120, #121, #20 ) ;
#185 = AXIS2_PLACEMENT_3D ( 'NONE', #24, #25, #17 ) ;
#186 = AXIS2_PLACEMENT_3D ( 'NONE', #149, #150, #151 ) ;
#187 = AXIS2_PLACEMENT_3D ( 'NONE', #118, #211, #212 ) ;
#188 = AXIS2_PLACEMENT_3D ( 'NONE', #213, #214, #215 ) ;
#189 = AXIS2_PLACEMENT_3D ( 'NONE', #216, #152, #153 ) ;
#190 =( GEOMETRIC_REPRESENTATION_CONTEXT ( 3 ) GLOBAL_UNCERTAINTY_ASSIGNED_CONTEXT ( ( #26 ) ) GLOBAL_UNIT_ASSIGNED_CONTEXT ( ( #157, #158, #159 ) ) REPRESENTATION_CONTEXT ( 'NONE', 'WORKASPACE' ) );
#191 = STYLED_ITEM ( 'NONE', ( #34 ), #18 ) ;
#192 = PRESENTATION_LAYER_ASSIGNMENT (  '', '', ( #191 ) ) ;
#193 = MECHANICAL_DESIGN_GEOMETRIC_PRESENTATION_REPRESENTATION (  '', ( #191 ), #194 ) ;
#194 =( GEOMETRIC_REPRESENTATION_CONTEXT ( 3 ) GLOBAL_UNCERTAINTY_ASSIGNED_CONTEXT ( ( #19 ) ) GLOBAL_UNIT_ASSIGNED_CONTEXT ( ( #7, #8, #9 ) ) REPRESENTATION_CONTEXT ( 'NONE', 'WORKASPACE' ) );
#195 = AXIS2_PLACEMENT_3D ( 'NONE', #155, #109, #110 ) ;
#196 = PRODUCT_DEFINITION ( 'UNKNOWN', '', #197, #139 ) ;
#197 = PRODUCT_DEFINITION_FORMATION_WITH_SPECIFIED_SOURCE ( 'ANY', '', #29, .NOT_KNOWN. ) ;
#198 = PRODUCT_RELATED_PRODUCT_CATEGORY ( 'part', '', ( #29 ) ) ;
#199 = CARTESIAN_POINT ( 'NONE',  ( 0.1899999999999999700, 7.286648454926750900E-018, -0.05949999999999999700 ) ) ;
#200 = CARTESIAN_POINT ( 'NONE',  ( 0.1899999999999999700, 0.0000000000000000000, 0.05949999999999999700 ) ) ;
#201 = CARTESIAN_POINT ( 'NONE',  ( 0.1899999999999999700, 8.327598234202001900E-018, -0.06800000000000000500 ) ) ;
#202 = CARTESIAN_POINT ( 'NONE',  ( -0.1899999999999999700, 0.0000000000000000000, 0.05949999999999999700 ) ) ;
#203 = DIRECTION ( 'NONE',  ( 0.0000000000000000000, 0.0000000000000000000, 1.000000000000000000 ) ) ;
#204 = DIRECTION ( 'NONE',  ( -1.000000000000000000, -0.0000000000000000000, -0.0000000000000000000 ) ) ;
#205 = CARTESIAN_POINT ( 'NONE',  ( 0.1899999999999999700, 0.0000000000000000000, 0.0000000000000000000 ) ) ;
#206 = CARTESIAN_POINT ( 'NONE',  ( 0.1899999999999999700, 0.0000000000000000000, 0.0000000000000000000 ) ) ;
#207 = CARTESIAN_POINT ( 'NONE',  ( -0.1899999999999999700, 0.0000000000000000000, 0.06800000000000000500 ) ) ;
#208 = CARTESIAN_POINT ( 'NONE',  ( -0.1899999999999999700, 7.286648454926750900E-018, -0.05949999999999999700 ) ) ;
#209 = CARTESIAN_POINT ( 'NONE',  ( -0.1899999999999999700, 8.327598234202001900E-018, -0.06800000000000000500 ) ) ;
#210 = DIRECTION ( 'NONE',  ( -1.000000000000000000, -0.0000000000000000000, -0.0000000000000000000 ) ) ;
#211 = DIRECTION ( 'NONE',  ( 1.000000000000000000, 0.0000000000000000000, 0.0000000000000000000 ) ) ;
#212 = DIRECTION ( 'NONE',  ( 0.0000000000000000000, 0.0000000000000000000, -1.000000000000000000 ) ) ;
#213 = CARTESIAN_POINT ( 'NONE',  ( -0.1899999999999999700, 0.0000000000000000000, 0.0000000000000000000 ) ) ;
#214 = DIRECTION ( 'NONE',  ( 1.000000000000000000, 0.0000000000000000000, 0.0000000000000000000 ) ) ;
#215 = DIRECTION ( 'NONE',  ( 0.0000000000000000000, 0.0000000000000000000, -1.000000000000000000 ) ) ;
#216 = CARTESIAN_POINT ( 'NONE',  ( -0.1899999999999999700, 0.0000000000000000000, 0.0000000000000000000 ) ) ;
#217 = PLANE ( 'NONE',  #180 ) ;
#218 = DIRECTION ( 'NONE',  ( 1.000000000000000000, 0.0000000000000000000, 0.0000000000000000000 ) ) ;
#219 = CARTESIAN_POINT ( 'NONE',  ( -0.1899999999999999700, 0.0000000000000000000, 0.0000000000000000000 ) ) ;
#220 = DIRECTION ( 'NONE',  ( 1.000000000000000000, 0.0000000000000000000, 0.0000000000000000000 ) ) ;
#221 = DIRECTION ( 'NONE',  ( 0.0000000000000000000, 0.0000000000000000000, -1.000000000000000000 ) ) ;
#222 = CARTESIAN_POINT ( 'NONE',  ( 0.1899999999999999700, 0.0000000000000000000, 0.0000000000000000000 ) ) ;
#223 = PLANE ( 'NONE',  #182 ) ;
ENDSEC;
END-ISO-10303-21;
